Mondo Metallaro

Il sito dove parlare liberamente del mondo della musica! Unisciti a noi!
 
IndiceCalendarioFAQCercaLista UtentiGruppiRegistratiAccedi

Condividere | 
 

 knocking on heaveans door

Vedere l'argomento precedente Vedere l'argomento seguente Andare in basso 
AutoreMessaggio
Budda dei chitarristi
Grafico
Grafico
avatar

Numero di messaggi : 122
Data d'iscrizione : 21.10.08

MessaggioTitolo: knocking on heaveans door   Mer Ott 22, 2008 5:51 pm

Ed ecco a voi Knocking on heavens door


intro
E---3--1---1--2-0----|---0--0--0--3--3--3--3--3--3 x5--0 x5
B---0----0----------1|---1--1--1--0--0--0--0--0--2 x5--1 x5
G---0---0----2-----0-|---0--0--0--0--0--0--0--0--3 x5--0 x5
D---0-------0-----2--|---2--2--2--0--0--0--0--0--0 x5--2 x5
A---2------------3---|---3--3--3--2--2--2--2--2--0 x5--3 x5
E---3----------------|---0--0--0--3--3--3--3--3--0 x5--0 x5

solo
First Solo:
b : bend
rb: release bend
sl: slide
~~: vibrato

e-------------------------------------------------------------------------------
B------------------------15------------------------------15sl 17-15~~-13-12-----
G-12--14b(16)rb14p 12-14---14b(16)rb14-12-12----------12------------------------
D---------------------------------------------12sl 14---------------------------
A-------------------------------------------------------------------------------
E-------------------------------------------------------------------------------



e-------------------------------15------------15-17b(19)rb17-17b(19)-17~~-------
B-13b(15)-13p 12-13-12----12-13----13-12sl-17-----------------------------------
G-------------------------------------------------------------------------------
D----------------------14~~-----------------------------------------------------
A-------------------------------------------------------------------------------
E-------------------------------------------------------------------------------



e-20b(22)rb20--20-19-20-19-20b(22)--20-19-20-20---------------------------------
B------------------------------------------------17-~~--17b(19)rb17b(19)rb17----
G-------------------------------------------------------------------------------
D-------------------------------------------------------------------------------
A-------------------------------------------------------------------------------
E-------------------------------------------------------------------------------



e--------------------------------
B--------------------------------
G-14b(16)rb14b(16)rb14-----------
D----------------------12-12~~~~~
A--------------------------------
E--------------------------------


Second Solo:
hold note
e-------12-15-14b(15)-14~~--14b(15)rb14p12-14-12-12~~-------12-15---------15----
B-13--13---------------------------------------------15b(17)-------15b(17)------
G---12--------------------------------------------------------------------------
D-------------------------------------------------------------------------------
A-------------------------------------------------------------------------------
E-------------------------------------------------------------------------------

hold bend
e---------------------------15-------------------------15-----------------------
B-15b(17)rb15-13-15-----------15-------------------------15--15-------15--------
G-------------------14b(16)------14b(16)rb14--12--14~--------14b(16)--14b(16)---
D-------------------------------------------------------------------------------
A-------------------------------------------------------------------------------
E-------------------------------------------------------------------------------



e-----------------15---17b(19)--17b(19)rb17-15-17-15---20-19-20-20b(22)--20-19-
B---------------15--15----------------------------------------------------------
G-12~~--14sl 16-----------------------------------------------------------------
D-------------------------------------------------------------------------------
A-------------------------------------------------------------------------------
E-------------------------------------------------------------------------------


hold bend hold note
e-20-20b(22)--20-19-20-22b(24)-22b(24)-22--------------22-----------------------
B-----------------------------------------20-22b(24)------22b(24)rb22-22~~------
G-------------------------------------------------------------------------------
D-------------------------------------------------------------------------------
A-------------------------------------------------------------------------------
E-------------------------------------------------------------------------------



e---------15--------------------------------15--15------------------------------
B-19b(20)---19~~--19b(20)rb19---17-19p17-17---17--17p15---15--------------------
G-------------------------------------------------------17---16b(17)rb16--------
D-------------------------------------------------------------------------------
A-------------------------------------------------------------------------------
E-------------------------------------------------------------------------------



e-------------------------------------------------------------------------------
B-------------------------------------------------------------------------------
G-sl 12-11-11b(12)rb11p9-9---9sl 7--5p4-----------------------------------------
D---------------------------------------5~~~~-----------------------------------
A-------------------------------------------------------------------------------
E-------------------------------------------------------------------------------
Tornare in alto Andare in basso
Vedi il profilo dell'utente
Master Rinon
Founder
Founder
avatar

Maschile
Numero di messaggi : 287
Età : 23
Località : Mi insidio nelle altre località
Occupazione/Hobby : Metallaro/Killer/ecc./ecc./ecc.
Umore : Felicemente... METALLARO!
Data d'iscrizione : 07.10.08

Carta d'Identità Completa
EXP:
0/0  (0/0)
Dati Rocker:

MessaggioTitolo: Re: knocking on heaveans door   Mer Ott 22, 2008 6:06 pm

piu tardi la provo... thx

_________________
Il rock'n'roll morirà entro giugno ("Variety", NBC, U.S.A., 1954)
Tornare in alto Andare in basso
Vedi il profilo dell'utente http://metalforum.forumattivo.com
Budda dei chitarristi
Grafico
Grafico
avatar

Numero di messaggi : 122
Data d'iscrizione : 21.10.08

MessaggioTitolo: Re: knocking on heaveans door   Mer Ott 22, 2008 6:14 pm

si se ci riesci ti dara piu siddisfazione delle altre canzoni
Tornare in alto Andare in basso
Vedi il profilo dell'utente
gene simmons
Admin
Admin
avatar

Maschile
Numero di messaggi : 167
Località : kissvalley
Occupazione/Hobby : rugbysta/rockettaro/re del mondo
Umore : inesistente
Data d'iscrizione : 08.10.08

Carta d'Identità Completa
EXP:
0/0  (0/0)
Dati Rocker:

MessaggioTitolo: Re: knocking on heaveans door   Ven Ott 24, 2008 5:45 pm

johnny qui c'è gente seria k deve diventare 1 rock star nn rompere i c******i....
ske....


_________________

Tornare in alto Andare in basso
Vedi il profilo dell'utente
Budda dei chitarristi
Grafico
Grafico
avatar

Numero di messaggi : 122
Data d'iscrizione : 21.10.08

MessaggioTitolo: Re: knocking on heaveans door   Ven Ott 24, 2008 6:12 pm

tolti i post di jhonny
Tornare in alto Andare in basso
Vedi il profilo dell'utente
gene simmons
Admin
Admin
avatar

Maschile
Numero di messaggi : 167
Località : kissvalley
Occupazione/Hobby : rugbysta/rockettaro/re del mondo
Umore : inesistente
Data d'iscrizione : 08.10.08

Carta d'Identità Completa
EXP:
0/0  (0/0)
Dati Rocker:

MessaggioTitolo: Re: knocking on heaveans door   Ven Ott 24, 2008 6:16 pm

bravo budda....cmq io ancora nn riesco a farla


_________________

Tornare in alto Andare in basso
Vedi il profilo dell'utente
Budda dei chitarristi
Grafico
Grafico
avatar

Numero di messaggi : 122
Data d'iscrizione : 21.10.08

MessaggioTitolo: Re: knocking on heaveans door   Ven Ott 24, 2008 6:18 pm

dai prova ancora nn edemordere
Tornare in alto Andare in basso
Vedi il profilo dell'utente
gene simmons
Admin
Admin
avatar

Maschile
Numero di messaggi : 167
Località : kissvalley
Occupazione/Hobby : rugbysta/rockettaro/re del mondo
Umore : inesistente
Data d'iscrizione : 08.10.08

Carta d'Identità Completa
EXP:
0/0  (0/0)
Dati Rocker:

MessaggioTitolo: Re: knocking on heaveans door   Ven Ott 24, 2008 6:23 pm

grazie della fiducia


_________________

Tornare in alto Andare in basso
Vedi il profilo dell'utente
Budda dei chitarristi
Grafico
Grafico
avatar

Numero di messaggi : 122
Data d'iscrizione : 21.10.08

MessaggioTitolo: Re: knocking on heaveans door   Ven Ott 24, 2008 6:25 pm

e dai sei anche il mio cliente preferito
Tornare in alto Andare in basso
Vedi il profilo dell'utente
gene simmons
Admin
Admin
avatar

Maschile
Numero di messaggi : 167
Località : kissvalley
Occupazione/Hobby : rugbysta/rockettaro/re del mondo
Umore : inesistente
Data d'iscrizione : 08.10.08

Carta d'Identità Completa
EXP:
0/0  (0/0)
Dati Rocker:

MessaggioTitolo: Re: knocking on heaveans door   Ven Ott 24, 2008 6:28 pm

grazie budda......te ne sono grato......molto grato...


_________________

Tornare in alto Andare in basso
Vedi il profilo dell'utente
Budda dei chitarristi
Grafico
Grafico
avatar

Numero di messaggi : 122
Data d'iscrizione : 21.10.08

MessaggioTitolo: Re: knocking on heaveans door   Ven Ott 24, 2008 6:30 pm

Tornare in alto Andare in basso
Vedi il profilo dell'utente
Master Rinon
Founder
Founder
avatar

Maschile
Numero di messaggi : 287
Età : 23
Località : Mi insidio nelle altre località
Occupazione/Hobby : Metallaro/Killer/ecc./ecc./ecc.
Umore : Felicemente... METALLARO!
Data d'iscrizione : 07.10.08

Carta d'Identità Completa
EXP:
0/0  (0/0)
Dati Rocker:

MessaggioTitolo: Re: knocking on heaveans door   Ven Ott 24, 2008 7:59 pm

quanta amicizia!!!! XD

_________________
Il rock'n'roll morirà entro giugno ("Variety", NBC, U.S.A., 1954)
Tornare in alto Andare in basso
Vedi il profilo dell'utente http://metalforum.forumattivo.com
2 diti di violenza
Utente
Utente
avatar

Maschile
Numero di messaggi : 47
Età : 23
Località : Cornetto city
Occupazione/Hobby : Studente
Umore : Felicissimo
Data d'iscrizione : 13.10.08

MessaggioTitolo: Re: knocking on heaveans door   Sab Ott 25, 2008 3:54 pm

budda... NON provare mai più a TOGLIERE i MIEI MESSAGGI, altrimenti...



PS=TONTO-TONTO-TONTO-TONTO e ARITONTO
Tornare in alto Andare in basso
Vedi il profilo dell'utente
Master Rinon
Founder
Founder
avatar

Maschile
Numero di messaggi : 287
Età : 23
Località : Mi insidio nelle altre località
Occupazione/Hobby : Metallaro/Killer/ecc./ecc./ecc.
Umore : Felicemente... METALLARO!
Data d'iscrizione : 07.10.08

Carta d'Identità Completa
EXP:
0/0  (0/0)
Dati Rocker:

MessaggioTitolo: Re: knocking on heaveans door   Sab Ott 25, 2008 3:59 pm

dipende, cosa avevi scritto?

_________________
Il rock'n'roll morirà entro giugno ("Variety", NBC, U.S.A., 1954)
Tornare in alto Andare in basso
Vedi il profilo dell'utente http://metalforum.forumattivo.com
Budda dei chitarristi
Grafico
Grafico
avatar

Numero di messaggi : 122
Data d'iscrizione : 21.10.08

MessaggioTitolo: Re: knocking on heaveans door   Sab Ott 25, 2008 7:01 pm

cavoleate!

tipo e de ecco a voii 45237864287

e poi

6732465o2834623
435438726483
6428753
Tornare in alto Andare in basso
Vedi il profilo dell'utente
King Of Metal
Global Mod
Global Mod
avatar

Maschile
Numero di messaggi : 40
Età : 22
Località : non ti deve interessare
Data d'iscrizione : 08.10.08

MessaggioTitolo: Re: knocking on heaveans door   Sab Ott 25, 2008 11:00 pm

va be non litigate

_________________
Tornare in alto Andare in basso
Vedi il profilo dell'utente
Master Rinon
Founder
Founder
avatar

Maschile
Numero di messaggi : 287
Età : 23
Località : Mi insidio nelle altre località
Occupazione/Hobby : Metallaro/Killer/ecc./ecc./ecc.
Umore : Felicemente... METALLARO!
Data d'iscrizione : 07.10.08

Carta d'Identità Completa
EXP:
0/0  (0/0)
Dati Rocker:

MessaggioTitolo: Re: knocking on heaveans door   Dom Ott 26, 2008 12:07 am

in questo caso hai fatto bene budda

_________________
Il rock'n'roll morirà entro giugno ("Variety", NBC, U.S.A., 1954)
Tornare in alto Andare in basso
Vedi il profilo dell'utente http://metalforum.forumattivo.com
gene simmons
Admin
Admin
avatar

Maschile
Numero di messaggi : 167
Località : kissvalley
Occupazione/Hobby : rugbysta/rockettaro/re del mondo
Umore : inesistente
Data d'iscrizione : 08.10.08

Carta d'Identità Completa
EXP:
0/0  (0/0)
Dati Rocker:

MessaggioTitolo: Re: knocking on heaveans door   Mar Ott 28, 2008 12:04 pm

nn fate a cazzotti sennò mi tocca fare male a qualcuno...cmq calmatevi.....ok?


_________________

Tornare in alto Andare in basso
Vedi il profilo dell'utente
kex812
Admin
Admin


Numero di messaggi : 57
Data d'iscrizione : 21.10.08

MessaggioTitolo: Re: knocking on heaveans door   Mar Ott 28, 2008 4:14 pm

Questa l'ho suonata per il saggio di chitarra!!!! Faro anche la cover con il gruppo molto probabilmente... Canzone davvero bella
Tornare in alto Andare in basso
Vedi il profilo dell'utente
Contenuto sponsorizzato




MessaggioTitolo: Re: knocking on heaveans door   

Tornare in alto Andare in basso
 
knocking on heaveans door
Vedere l'argomento precedente Vedere l'argomento seguente Tornare in alto 
Pagina 1 di 1
 Argomenti simili
-
» 06 - Tomorrow

Permessi di questa sezione del forum:Non puoi rispondere agli argomenti in questo forum
Mondo Metallaro :: Music Zone :: Tablature-
Andare verso: